Results 1 to 9 of 9

Thread: Can't Get Away Nokia EP

  1. #1
    Banned
    Join Date
    Jul 2010
    Location
    Atlanta, GA
    Posts
    292
    Blog Entries
    1
    Reputation
    0
    Rep Power
    0

    Can't Get Away Nokia EP

    Ok i will honestly pay someone to give me an accurate tab of CGA from the Nokia EP.
    $30 for the whole thing, except id like a recording of you playing the tab before i pay up so i know its right
    any takers?

  2. #2
    Should probably get a hobby sguitaradam's Avatar
    Join Date
    Jan 2010
    Location
    Sanford, FL
    Posts
    1,405
    Reputation
    270
    Rep Power
    15
    Got a link to the song?

  3. #3
    Pillar of the community cheetos's Avatar
    Join Date
    Feb 2007
    Location
    Australia
    Posts
    657
    Reputation
    244
    Rep Power
    14
    I figured the song out to play it like this recording a while ago, do u want it tabbed like u have capo 2nd fret, or the guitar tuned to F#BEAC#F# ?
    The best things come and go
    Invest in those

  4. #4
    ur mom
    LikeaBurningMan's Avatar
    Join Date
    Jan 2003
    Location
    austinhizzle
    Posts
    5,327
    Reputation
    975
    Rep Power
    38
    Quote Originally Posted by cheetos View Post
    I figured the song out to play it like this recording a while ago, do u want it tabbed like u have capo 2nd fret, or the guitar tuned to F#BEAC#F# ?
    How would the tab differ either way?
    POWR
    AFTW
    SD
    PBN
    TSYS

  5. #5
    Pillar of the community cheetos's Avatar
    Join Date
    Feb 2007
    Location
    Australia
    Posts
    657
    Reputation
    244
    Rep Power
    14
    Quote Originally Posted by LikeaBurningMan View Post
    How would the tab differ either way?
    Oops sorry, my mistake, i wasn't thinking
    The best things come and go
    Invest in those

  6. #6
    Banned
    Join Date
    Jul 2010
    Location
    Atlanta, GA
    Posts
    292
    Blog Entries
    1
    Reputation
    0
    Rep Power
    0
    Quote Originally Posted by sguitaradam View Post
    Got a link to the song?
    sure I'll post when I get home

    Sent from my iPhone

  7. #7
    Banned
    Join Date
    Jul 2010
    Location
    Atlanta, GA
    Posts
    292
    Blog Entries
    1
    Reputation
    0
    Rep Power
    0
    Quote Originally Posted by cheetos View Post
    Oops sorry, my mistake, i wasn't thinking

    I'd prefer F#BEAC#F#

  8. #8
    Pillar of the community cheetos's Avatar
    Join Date
    Feb 2007
    Location
    Australia
    Posts
    657
    Reputation
    244
    Rep Power
    14
    THIRD EYE BLIND
    CANT GET AWAY - LIVE
    NOKIA E.P

    TABBED BY MATTHEW CHEETHAM (cheetos)

    TUNING:F#BEAC#F#
    OR

    Capo 2nd Fret (All notes relative to capo)


    E|-----^12-----^12-----^12------------------------------
    B|-^12-----^12-----^12------10-10-10-10--9h10-9h10-9h10-
    G|------------------------------------------------------
    D|------------------------------------------------------
    A|------------------------------------------------------
    E|------------------------------------------------------

    E|-----0-----0------0---------0-------0-------0-----0------0----0----
    B|-^12---^12----10------0--9-----7h9-----10p9---7h9----5h7---4h5-0---
    G|-------------------------------------------------------------------
    D|-------------------------------------------------------------------
    A|-------------------------------------------------------------------
    E|-------------------------------------------------------------------

    E|-^5-----0------0------^5-------------------------
    B|-----4h5-0--4h5-0--^5-------^12--0---------------
    G|-------------------------------------------------
    D|-------------------------------------------------
    A|-------------------------------------------------
    E|-------------------------------------------------

    0:18

    E|----0----0-----0----0------0-----0-----0---------
    B|-10---10----12---10---9h10---7h9---7h9---0-------
    G|-------------------------------------------------
    D|-------------------------------------------------
    A|-------------------------------------------------
    E|-------------------------------------------------

    E|----0------0---^5-------0----^5------------------
    B|-4h5-0--2h4-0----^5--2h4-0-----^5----------------
    G|-------------------------------------------------
    D|-------------------------------------------------
    A|-------------------------------------------------
    E|-------------------------------------------------

    0:27

    E|-----0-----0----0-----0------------0------0----0-----0-----
    B|--^12-0-^12--10---0-9---10p9----^12--0-^12--10---0-9---7h9-
    G|-----------------------------------------------------------
    D|-----------------------------------------------------------
    A|-----------------------------------------------------------
    E|-----------------------------------------------------------

    E|-----0-----0----0-----0------------0------0----0-----0-----
    B|--^12-0-^12--10---0-9---10p9----^12--0-^12--10---0-9---7h9-
    G|-----------------------------------------------------------
    D|-----------------------------------------------------------
    A|-----------------------------------------------------------
    E|-----------------------------------------------------------

    0:36

    E|-----0-----0----0-----0------0------0------0-----0~~0~0~~--
    B|--^12-0-^12--10---0-9---10p9---9h10----7h9---4h5---5-5-----
    G|-----------------------------------------------------------
    D|-----------------------------------------------------------
    A|-----------------------------------------------------------
    E|-----------------------------------------------------------

    E|-----0-----0----0-----0------------0------0----0-----0-----
    B|--^12-0-^12--10---0-9---10p9----^12--0-^12--10---0-9---7h9-
    G|-----------------------------------------------------------
    D|----------------------------------------------------------- X2
    A|-----------------------------------------------------------
    E|-----------------------------------------------------------

    E|-----0-----0----0-----0-----------0------0----0-----0------
    B|--^12-0-^12--10---0-9---7h9----^12--0-^12--10---0-9---9h10-
    G|-----------------------------------------------------------
    D|-----------------------------------------------------------
    A|-----------------------------------------------------------
    E|-----------------------------------------------------------

    0:54- I miss the sand
    E|---------0--------------------0------------0--
    B|-----------0--------------------0-------------
    G|--1-1-----------------------------------------
    D|---------------------------6-------4-----2----
    A|---------------------2-2/4--------------------
    E|----------------------------------------------

    E|---------0-----0------------------------------
    B|----------------------------------------------
    G|----------------------------------------------
    D|------6-----4-----2---------------------------
    A|--2/4-----------------------------------------
    E|----------------------------------------------

    ************************************************** *
    (CHORUS) I can't get away from you

    E|-----0-0---------0-0-----4-4-4-4---2-2-2-2------
    B|-----0-0-0---0-0-0-0-0---5-5-5-5---0-0-0-0------
    G|-2-2-2-2-----1-1-1-1-----6-6-6-6---4-4-4-4------
    D|-2-2---------2-2---------6-6-6-6---4-4-4-4------
    A|-0-0---------2-2--------------------------------
    E|-------------0-0--------------------------------

    E|-----0-0---------0-0-----4-4-4-4---2--2---------
    B|-----0-0-0---0-0-0-0-0---5-5-5-5---0--0---------
    G|-2-2-2-2-----1-1-1-1-----6-6-6-6---4--4---------
    D|-2-2---------2-2---------6-6-6-6---4--4---------
    A|-0-0---------2-2--------------------------------
    E|-------------0-0--------------------------------
    ************************************************** *
    1:18

    E|-----0-----0----0-----0------------0------0----0-----0-----
    B|--^12-0-^12--10---0-9---10p9----^12--0-^12--10---0-9---7h9-
    G|-----------------------------------------------------------
    D|-----------------------------------------------------------
    A|-----------------------------------------------------------
    E|-----------------------------------------------------------


    E|-----0-----0----0-----0-------0------0-----0---0---0-------
    B|--^12-0-^12--10---0-9---10p9----9h10---7h9---7---7---7~~~--
    G|-----------------------------------------------------------
    D|-----------------------------------------------------------
    A|-----------------------------------------------------------
    E|-----------------------------------------------------------

    1:27- Where the ocean

    E|---------0-0----------0-----0------0----------
    B|-----------0------------0-----0---------------
    G|----------------------------------------------
    D|------6-------------6-----4-----2-------------
    A|--2/4---------2-2/4---------------------------
    E|----------------------------------------------

    E|---------0------------0-----------------------
    B|-----------0----------0-----------------------
    G|----------------------------------------------
    D|------6-------4-------------------------------
    A|--2/4-----------------------------------------
    E|----------------------------------------------

    *****************
    REPEAT CHORUS
    *****************

    1:59

    E|-----------4------------------4-------4------
    B|--5-5----------5----------------5-------5-0--
    G|--6----4---------4---4----4-------4----------
    D|--6------6---------6------6---------6--------
    A|--4-----------------------4------------------
    E|---------------------------------------------

    E|-----0--------------------0----0-0-----------
    B|--0----0---0---0-----0------0------0---------
    G|--1----------1---------2---------------------
    D|--2------2-----------------------------------
    A|--2---------------2--------------------------
    E|---------------------------------------------

    E|------------------7-7-7-7-7-7-7\-------------
    B|--5-5---5p4----------------------------------
    G|--6---------4--------------------------------
    D|--6-----------6------------------------------
    A|--4------------------------------------------
    E|---------------------------------------------

    E|-----0-------0------0------------------------
    B|--0----0------0-------0----------------------
    G|--1------2-----1-----------------------------
    D|--2------------------------------------------
    A|--2------------------------------------------
    E|---------------------------------------------

    E|----------------0-----0----------------------
    B|------------------0-----0--------------------
    G|---------------------------------------------
    D|---------------------------------------------
    A|------2-2h4----------------------------------
    E|--2-4-------2-2-----2------------------------

    E|------0-------0--0-------0-----0-------------
    B|--------0------------------0-----------------
    G|--1-------1h2--2---2-/-4-----4---------------
    D|--2------------------------------------------
    A|--2------------------------------------------
    E|--0------------------------------------------

    E|---------------------------0--------0---------0-----0---0---0---
    B|-----------------------------0--------0-----0---0----0---0---0--
    G|-----------------------2---------1-1----1h2--------4---4---4----
    D|-----------------------2---------2------------------------------
    A|-----------2-2h4-------0---------2------------------------------
    E|--4\2--2-4--------2-0-------------------------------------------

    E|--5--------4-------9--------7-7-7-7-7-7-----
    B|--5--------5-------9--------7-7-7-7-7-7-----
    G|--6--------4-------9--------8-8-8-8-9-8-----
    D|--7--------6-------11-------9-9-9-9-9-9-----
    A|--------------------------------------------
    E|--------------------------------------------

    E|--5--5-5---4-4--4----4---9--9-----9----7----
    B|--5--5-5---5-5--5--5-5---9--9-----9----7----
    G|--6--6-6---4-4--4--4-4---9--9---9------8----
    D|--7--7-7---6-6--6--6-6---11-11--11-----9----
    A|--------------------------------------------
    E|--------------------------------------------

    *******
    BONGOS
    *******

    3:33

    E|-----4-----------0---------7-----------0------
    B|--5----5------0---------5----5------0---------
    G|--6------4----2---------4------4----2---------
    D|--6-----------2---------6-----------2---------
    A|--4---------------------4---------------------
    E|----------------------------------------------

    E|-----------------0---------7------------------
    B|--5--4--------0---------5----5------0---------
    G|--4----4------2---------4-----------2---------
    D|--6-----------2---------6-----------2---------
    A|--4---------------------4---------------------
    E|----------------------------------------------

    E|-----4--------0-------------------------------
    B|--5-----------0-------------------------------
    G|--6-----------2-------------------------------
    D|--6-----------2-------------------------------
    A|--4-----------0-------------------------------
    E|----------------------------------------------

    3:56

    E|------------------0---0--------0------0----0-----0-------
    B|--^12----------10---9------^12---0-^12--10---0-9---10p9--
    G|---------------------------------------------------------
    D|---------------------------------------------------------
    A|---------------------------------------------------------
    E|---------------------------------------------------------

    E|-----0-------0----0---0-----0------0-----0-----0-----0---
    B|--^12--0-^12---10---9---7h9---10p9---7h9---5h7---4h5---0-
    G|---------------------------------------------------------
    D|---------------------------------------------------------
    A|---------------------------------------------------------
    E|---------------------------------------------------------

    E|-----0-----0----0-----0------------0------0----0-----0------
    B|--^12-0-^12--10---0-9---10p9----^12--0-^12--10---0-9---10p9-
    G|------------------------------------------------------------
    D|------------------------------------------------------------
    A|------------------------------------------------------------
    E|------------------------------------------------------------

    E|-------------0-------0---0-----0------0-----0-----0-----0-----
    B|--^12--0-^12---0--10---9---7h9---10p9---7h9---5h7---4h5---4h5-
    G|--------------------------------------------------------------
    D|--------------------------------------------------------------
    A|--------------------------------------------------------------
    E|--------------------------------------------------------------

    JEEP GETS BUSTED

    E|-----0-0---------0-0-----4-4-4-4---2-2-2-2-------
    B|-----0-0-----0-0-0-0-0---5-5-5-5---0-0-0-0------
    G|-2-2-2-2-----1-1-1-1-----6-6-6-6---4-4-4-4------- X6
    D|-2-2---------2-2---------6-6-6-6---4-4-4-4-------
    A|-0-0---------2-2---------------------------------
    E|-------------0-0---------------------------------

    E|-----0-0---------0-0-----9--9------7-7-7-7-7-7---
    B|-----0-0-----0-0-0-0-0---9--9------7-7-7-7-7-7---
    G|-2-2-2-2-----1-1-1-1-----9--9------8-8-8-8-8-8---
    D|-2-2---------2-2---------11-11-----9-9-9-9-9-9---
    A|-0-0---------2-2---------------------------------
    E|-------------0-0---------------------------------

    E|--5-5-5------4-4-4-4----9--9-------7-7-7-7-7-7---
    B|--5-5-5------5-5-5-5----9--9-------7-7-7-7-7-7---
    G|--6-6-6------4-4-4-4----9--9-------8-8-8-8-9-8---
    D|--7-7-7------6-6-6-6----11-11------9-9-9-9-9-9---
    A|-------------------------------------------------
    E|-------------------------------------------------

    E|--5-5-5------4-4-4-4----9--9--12-9-----7-7-------
    B|--5-5-5------5-5-5-5----9--9--9--9-----7-7-------
    G|--6-6-6------4-4-4-4----9--9--9--9-----8-9-------
    D|--7-7-7------6-6-6-6----11-11-11-11----9-9-------
    A|-------------------------------------------------
    E|-------------------------------------------------

    E|--5-5-5------4-4-4-4----9--9-------7-7-7------
    B|--5-5-5------5-5-5-5----9--9-------7-7-7------
    G|--6-6-6------4-4-4-4----9--9-------8-9-8------
    D|--7-7-7------6-6-6-6----11-11------9-9-9------
    A|----------------------------------------------
    E|----------------------------------------------

    E|--5-5-5------4-4-4-4----9--9-------7-7-
    B|--5-5-5------5-5-5-5----9--9-------7-7-
    G|--6-6-6------4-4-4-4----9--9-------8-8-
    D|--7-7-7------6-6-6-6----11-11------9-9-
    A|---------------------------------------
    E|---------------------------------------


    Last chords of song

    E|--5-----4-0--4--4p0--2-2-0--5--4--4-4---2--0---
    B|--5-----5--5-5-------0------5--5--5-----0--0---
    G|--6-----4----6-------4------6--4--6-----4--1---
    D|--7-----6----6-------4------7--6--6-----4--2---
    A|-------------------------------------------2---
    E|-----------------------------------------------
    The best things come and go
    Invest in those

  9. #9
    Pillar of the community cheetos's Avatar
    Join Date
    Feb 2007
    Location
    Australia
    Posts
    657
    Reputation
    244
    Rep Power
    14
    3ebrich never payed up :P
    The best things come and go
    Invest in those

Bookmarks

Posting Permissions

  • You may not post new threads
  • You may not post replies
  • You may not post attachments
  • You may not edit your posts
  •